  0
SECTION
  2
HEADER
  9
$ACADVER
  1
AC1015
  9
$ACADMAINTVER
 70
     6
  9
$DWGCODEPAGE
  3
ANSI_1254
  9
$INSBASE
 10
0.0
 20
0.0
 30
0.0
  9
$EXTMIN
 10
0.0
 20
0.0
 30
0.0
  9
$EXTMAX
 10
279.4
 20
215.9
 30
0.0
  9
$LIMMIN
 10
0.0
 20
0.0
  9
$LIMMAX
 10
279.4
 20
215.9
  9
$ORTHOMODE
 70
     0
  9
$REGENMODE
 70
     1
  9
$FILLMODE
 70
     1
  9
$QTEXTMODE
 70
     0
  9
$MIRRTEXT
 70
     1
  9
$LTSCALE
 40
1.0
  9
$ATTMODE
 70
     1
  9
$TEXTSIZE
 40
3.5
  9
$TRACEWID
 40
1.0
  9
$TEXTSTYLE
  7
Standard
  9
$CLAYER
  8
0
  9
$CELTYPE
  6
ByLayer
  9
$CECOLOR
 62
   256
  9
$CELTSCALE
 40
1.0
  9
$DISPSILH
 70
     0
  9
$DIMSCALE
 40
1.0
  9
$DIMASZ
 40
3.5
  9
$DIMEXO
 40
1.0
  9
$DIMDLI
 40
3.75
  9
$DIMRND
 40
0.0
  9
$DIMDLE
 40
0.0
  9
$DIMEXE
 40
1.0
  9
$DIMTP
 40
0.0
  9
$DIMTM
 40
0.0
  9
$DIMTXT
 40
3.5
  9
$DIMCEN
 40
2.5
  9
$DIMTSZ
 40
0.0
  9
$DIMTOL
 70
     0
  9
$DIMLIM
 70
     0
  9
$DIMTIH
 70
     1
  9
$DIMTOH
 70
     1
  9
$DIMSE1
 70
     0
  9
$DIMSE2
 70
     0
  9
$DIMTAD
 70
     1
  9
$DIMZIN
 70
     0
  9
$DIMBLK
  1

  9
$DIMASO
 70
     1
  9
$DIMSHO
 70
     1
  9
$DIMPOST
  1

  9
$DIMAPOST
  1

  9
$DIMALT
 70
     0
  9
$DIMALTD
 70
     3
  9
$DIMALTF
 40
0.0393700787
  9
$DIMLFAC
 40
1.0
  9
$DIMTOFL
 70
     1
  9
$DIMTVP
 40
0.0
  9
$DIMTIX
 70
     0
  9
$DIMSOXD
 70
     0
  9
$DIMSAH
 70
     0
  9
$DIMBLK1
  1

  9
$DIMBLK2
  1

  9
$DIMSTYLE
  2
ISO-25
  9
$DIMCLRD
 70
     0
  9
$DIMCLRE
 70
     0
  9
$DIMCLRT
 70
     0
  9
$DIMTFAC
 40
1.0
  9
$DIMGAP
 40
1.524
  9
$DIMJUST
 70
     0
  9
$DIMSD1
 70
     0
  9
$DIMSD2
 70
     0
  9
$DIMTOLJ
 70
     0
  9
$DIMTZIN
 70
     0
  9
$DIMALTZ
 70
     0
  9
$DIMALTTZ
 70
     0
  9
$DIMUPT
 70
     0
  9
$DIMDEC
 70
     2
  9
$DIMTDEC
 70
     2
  9
$DIMALTU
 70
     2
  9
$DIMALTTD
 70
     3
  9
$DIMTXSTY
  7
Standard
  9
$DIMAUNIT
 70
     0
  9
$DIMADEC
 70
     2
  9
$DIMALTRND
 40
0.0
  9
$DIMAZIN
 70
     0
  9
$DIMDSEP
 70
    44
  9
$DIMATFIT
 70
     3
  9
$DIMFRAC
 70
     0
  9
$DIMLDRBLK
  1

  9
$DIMLUNIT
 70
     2
  9
$DIMLWD
 70
    -2
  9
$DIMLWE
 70
    -2
  9
$DIMTMOVE
 70
     0
  9
$LUNITS
 70
     2
  9
$LUPREC
 70
     2
  9
$SKETCHINC
 40
1.0
  9
$FILLETRAD
 40
10.0
  9
$AUNITS
 70
     0
  9
$AUPREC
 70
     2
  9
$MENU
  1
.
  9
$ELEVATION
 40
0.0
  9
$PELEVATION
 40
0.0
  9
$THICKNESS
 40
0.0
  9
$LIMCHECK
 70
     0
  9
$CHAMFERA
 40
0.0
  9
$CHAMFERB
 40
0.0
  9
$CHAMFERC
 40
0.0
  9
$CHAMFERD
 40
0.0
  9
$SKPOLY
 70
     0
  9
$TDCREATE
 40
2458985.651441285
  9
$TDUCREATE
 40
2458985.526441285
  9
$TDUPDATE
 40
2458985.651441551
  9
$TDUUPDATE
 40
2458985.526441551
  9
$TDINDWG
 40
0.0000000116
  9
$TDUSRTIMER
 40
0.0000000116
  9
$USRTIMER
 70
     1
  9
$ANGBASE
 50
0.0
  9
$ANGDIR
 70
     0
  9
$PDMODE
 70
     0
  9
$PDSIZE
 40
-1.0
  9
$PLINEWID
 40
0.0
  9
$SPLFRAME
 70
     0
  9
$SPLINETYPE
 70
     6
  9
$SPLINESEGS
 70
     8
  9
$HANDSEED
  5
BF
  9
$SURFTAB1
 70
     6
  9
$SURFTAB2
 70
     6
  9
$SURFTYPE
 70
     6
  9
$SURFU
 70
     6
  9
$SURFV
 70
     6
  9
$UCSBASE
  2

  9
$UCSNAME
  2

  9
$UCSORG
 10
0.0
 20
0.0
 30
0.0
  9
$UCSXDIR
 10
1.0
 20
0.0
 30
0.0
  9
$UCSYDIR
 10
0.0
 20
1.0
 30
0.0
  9
$UCSORTHOREF
  2

  9
$UCSORTHOVIEW
 70
     0
  9
$UCSORGTOP
 10
0.0
 20
0.0
 30
0.0
  9
$UCSORGBOTTOM
 10
0.0
 20
0.0
 30
0.0
  9
$UCSORGLEFT
 10
0.0
 20
0.0
 30
0.0
  9
$UCSORGRIGHT
 10
0.0
 20
0.0
 30
0.0
  9
$UCSORGFRONT
 10
0.0
 20
0.0
 30
0.0
  9
$UCSORGBACK
 10
0.0
 20
0.0
 30
0.0
  9
$PUCSBASE
  2

  9
$PUCSNAME
  2

  9
$PUCSORG
 10
0.0
 20
0.0
 30
0.0
  9
$PUCSXDIR
 10
1.0
 20
0.0
 30
0.0
  9
$PUCSYDIR
 10
0.0
 20
1.0
 30
0.0
  9
$PUCSORTHOREF
  2

  9
$PUCSORTHOVIEW
 70
     0
  9
$PUCSORGTOP
 10
0.0
 20
0.0
 30
0.0
  9
$PUCSORGBOTTOM
 10
0.0
 20
0.0
 30
0.0
  9
$PUCSORGLEFT
 10
0.0
 20
0.0
 30
0.0
  9
$PUCSORGRIGHT
 10
0.0
 20
0.0
 30
0.0
  9
$PUCSORGFRONT
 10
0.0
 20
0.0
 30
0.0
  9
$PUCSORGBACK
 10
0.0
 20
0.0
 30
0.0
  9
$USERI1
 70
     0
  9
$USERI2
 70
     0
  9
$USERI3
 70
     0
  9
$USERI4
 70
     0
  9
$USERI5
 70
     0
  9
$USERR1
 40
0.0
  9
$USERR2
 40
0.0
  9
$USERR3
 40
0.0
  9
$USERR4
 40
0.0
  9
$USERR5
 40
0.0
  9
$WORLDVIEW
 70
     1
  9
$SHADEDGE
 70
     3
  9
$SHADEDIF
 70
    70
  9
$TILEMODE
 70
     1
  9
$MAXACTVP
 70
    64
  9
$PINSBASE
 10
0.0
 20
0.0
 30
0.0
  9
$PLIMCHECK
 70
     0
  9
$PEXTMIN
 10
1.0000000000E+20
 20
1.0000000000E+20
 30
1.0000000000E+20
  9
$PEXTMAX
 10
-1.0000000000E+20
 20
-1.0000000000E+20
 30
-1.0000000000E+20
  9
$PLIMMIN
 10
0.0
 20
0.0
  9
$PLIMMAX
 10
420.0
 20
297.0
  9
$UNITMODE
 70
     0
  9
$VISRETAIN
 70
     1
  9
$PLINEGEN
 70
     0
  9
$PSLTSCALE
 70
     1
  9
$TREEDEPTH
 70
  3020
  9
$CMLSTYLE
  2
Standard
  9
$CMLJUST
 70
     0
  9
$CMLSCALE
 40
20.0
  9
$PROXYGRAPHICS
 70
     1
  9
$MEASUREMENT
 70
     1
  9
$CELWEIGHT
370
    -1
  9
$ENDCAPS
280
     0
  9
$JOINSTYLE
280
     0
  9
$LWDISPLAY
290
     1
  9
$INSUNITS
 70
     4
  9
$HYPERLINKBASE
  1

  9
$STYLESHEET
  1

  9
$XEDIT
290
     1
  9
$CEPSNTYPE
380
     0
  9
$PSTYLEMODE
290
     1
  9
$FINGERPRINTGUID
  2
{d31cde3d-1cdb-4c52-bdb7-c27ebf2942d4}
  9
$VERSIONGUID
  2
{FAEB1C32-E019-11D5-929B-00C0DF256EC4}
  9
$EXTNAMES
290
     1
  9
$PSVPSCALE
 40
0.0
  9
$OLESTARTUP
290
     0
  0
ENDSEC
  0
SECTION
  2
CLASSES
  0
CLASS
  1
ACDBDICTIONARYWDFLT
  2
AcDbDictionaryWithDefault
  3
ObjectDBX Classes
 90
        0
280
     0
281
     0
  0
CLASS
  1
VISUALSTYLE
  2
AcDbVisualStyle
  3
ObjectDBX Classes
 90
     4095
280
     0
281
     0
  0
CLASS
  1
MATERIAL
  2
AcDbMaterial
  3
ObjectDBX Classes
 90
     1153
280
     0
281
     0
  0
CLASS
  1
SCALE
  2
AcDbScale
  3
ObjectDBX Classes
 90
     1153
280
     0
281
     0
  0
CLASS
  1
TABLESTYLE
  2
AcDbTableStyle
  3
ObjectDBX Classes
 90
     4095
280
     0
281
     0
  0
CLASS
  1
MLEADERSTYLE
  2
AcDbMLeaderStyle
  3
ACDB_MLEADERSTYLE_CLASS
 90
     4095
280
     0
281
     0
  0
CLASS
  1
SUN
  2
AcDbSun
  3
SCENEOE
 90
     1153
280
     0
281
     0
  0
CLASS
  1
ACDBPLACEHOLDER
  2
AcDbPlaceHolder
  3
ObjectDBX Classes
 90
        0
280
     0
281
     0
  0
CLASS
  1
LAYOUT
  2
AcDbLayout
  3
ObjectDBX Classes
 90
        0
280
     0
281
     0
  0
ENDSEC
  0
SECTION
  2
TABLES
  0
TABLE
  2
VPORT
  5
8
330
0
100
AcDbSymbolTable
 70
     1
  0
VPORT
  5
29
330
8
100
AcDbSymbolTableRecord
100
AcDbViewportTableRecord
  2
*Active
 70
     0
 10
0.0
 20
0.0
 11
1.0
 21
1.0
 12
139.7
 22
107.95
 13
0.0
 23
0.0
 14
10.0
 24
10.0
 15
10.0
 25
10.0
 16
0.0
 26
0.0
 36
1.0
 17
0.0
 27
0.0
 37
0.0
 40
215.9
 41
1.2941176471
 42
50.0
 43
0.0
 44
0.0
 50
0.0
 51
0.0
 71
     0
 72
  2000
 73
     1
 74
     3
 75
     0
 76
     0
 77
     0
 78
     0
281
     0
 65
     1
110
0.0
120
0.0
130
0.0
111
1.0
121
0.0
131
0.0
112
0.0
122
1.0
132
0.0
 79
     0
146
0.0
  0
ENDTAB
  0
TABLE
  2
LTYPE
  5
5
330
0
100
AcDbSymbolTable
 70
     6
  0
LTYPE
  5
14
330
5
100
AcDbSymbolTableRecord
100
AcDbLinetypeTableRecord
  2
ByBlock
 70
     0
  3

 72
    65
 73
     0
 40
0.0
  0
LTYPE
  5
15
330
5
100
AcDbSymbolTableRecord
100
AcDbLinetypeTableRecord
  2
ByLayer
 70
     0
  3

 72
    65
 73
     0
 40
0.0
  0
LTYPE
  5
16
330
5
100
AcDbSymbolTableRecord
100
AcDbLinetypeTableRecord
  2
Continuous
 70
     0
  3
Solid line
 72
    65
 73
     0
 40
0.0
  0
LTYPE
  5
6E
330
5
100
AcDbSymbolTableRecord
100
AcDbLinetypeTableRecord
  2
HIDDEN
 70
     0
  3
Hidden __ __ __ __ __ __ __ __ __ __ __ __ __ __
 72
    65
 73
     2
 40
1.905
 49
1.27
 74
     0
 49
-0.635
 74
     0
  0
LTYPE
  5
6F
330
5
100
AcDbSymbolTableRecord
100
AcDbLinetypeTableRecord
  2
PHANTOM
 70
     0
  3
Phantom ______  __  __  ______  __  __  ______
 72
    65
 73
     6
 40
12.7
 49
6.35
 74
     0
 49
-1.27
 74
     0
 49
1.27
 74
     0
 49
-1.27
 74
     0
 49
1.27
 74
     0
 49
-1.27
 74
     0
  0
LTYPE
  5
70
330
5
100
AcDbSymbolTableRecord
100
AcDbLinetypeTableRecord
  2
CENTER
 70
     0
  3
Center ____ _ ____ _ ____ _ ____ _ ____ _ ____
 72
    65
 73
     4
 40
10.16
 49
6.35
 74
     0
 49
-1.27
 74
     0
 49
1.27
 74
     0
 49
-1.27
 74
     0
  0
LTYPE
  5
71
330
5
100
AcDbSymbolTableRecord
100
AcDbLinetypeTableRecord
  2
CENTERX2
 70
     0
  3
Center (2x) ________  __  ________  __  _____
 72
    65
 73
     4
 40
20.32
 49
12.7
 74
     0
 49
-2.54
 74
     0
 49
2.54
 74
     0
 49
-2.54
 74
     0
  0
LTYPE
  5
72
330
5
100
AcDbSymbolTableRecord
100
AcDbLinetypeTableRecord
  2
DOT2
 70
     0
  3
Dot (.5x) ........................................
 72
    65
 73
     2
 40
0.635
 49
0.0
 74
     0
 49
-0.635
 74
     0
  0
ENDTAB
  0
TABLE
  2
LAYER
  5
2
330
0
100
AcDbSymbolTable
 70
    17
  0
LAYER
  5
10
330
2
100
AcDbSymbolTableRecord
100
AcDbLayerTableRecord
  2
0
 70
     0
 62
     7
  6
Continuous
370
    -3
390
F
  0
LAYER
  5
73
330
2
100
AcDbSymbolTableRecord
100
AcDbLayerTableRecord
  2
FORMAT
 70
     0
 62
     7
  6
Continuous
370
    -3
390
F
  0
LAYER
  5
74
330
2
100
AcDbSymbolTableRecord
100
AcDbLayerTableRecord
  2
YARDIMCI_GEOMETRI
 70
     0
 62
    -6
  6
Continuous
290
     0
370
    -3
390
F
  0
LAYER
  5
75
330
2
100
AcDbSymbolTableRecord
100
AcDbLayerTableRecord
  2
SAYFA_CERCEVESI
 70
     0
 62
     7
  6
Continuous
370
    25
390
F
  0
LAYER
  5
76
330
2
100
AcDbSymbolTableRecord
100
AcDbLayerTableRecord
  2
ANTET
 70
     0
 62
     7
  6
Continuous
370
    -3
390
F
  0
LAYER
  5
77
330
2
100
AcDbSymbolTableRecord
100
AcDbLayerTableRecord
  2
OLCU
 70
     0
 62
   150
  6
Continuous
370
    -3
390
F
  0
LAYER
  5
78
330
2
100
AcDbSymbolTableRecord
100
AcDbLayerTableRecord
  2
METIN
 70
     0
 62
    96
  6
Continuous
370
    -3
390
F
  0
LAYER
  5
79
330
2
100
AcDbSymbolTableRecord
100
AcDbLayerTableRecord
  2
BALON
 70
     0
 62
     5
  6
Continuous
370
    -3
390
F
  0
LAYER
  5
7A
330
2
100
AcDbSymbolTableRecord
100
AcDbLayerTableRecord
  2
VURGU
 70
     0
 62
     7
  6
Continuous
370
    -3
390
F
  0
LAYER
  5
7B
330
2
100
AcDbSymbolTableRecord
100
AcDbLayerTableRecord
  2
SILIK
 70
     0
 62
     7
  6
Continuous
370
    -3
390
F
  0
LAYER
  5
7C
330
2
100
AcDbSymbolTableRecord
100
AcDbLayerTableRecord
  2
MODEL
 70
     0
 62
     7
  6
Continuous
370
    -3
390
F
  0
LAYER
  5
7D
330
2
100
AcDbSymbolTableRecord
100
AcDbLayerTableRecord
  2
DETAYLANDıRMA
 70
     0
 62
   190
  6
Continuous
370
    -3
390
F
  0
LAYER
  5
7E
330
2
100
AcDbSymbolTableRecord
100
AcDbLayerTableRecord
  2
TOLERANS
 70
     0
 62
   230
  6
Continuous
370
    -3
390
F
  0
LAYER
  5
7F
330
2
100
AcDbSymbolTableRecord
100
AcDbLayerTableRecord
  2
MERKEZ_CIZGILERI
 70
     0
 62
    30
  6
Continuous
370
    -3
390
F
  0
LAYER
  5
80
330
2
100
AcDbSymbolTableRecord
100
AcDbLayerTableRecord
  2
KESIT-DETAY_CIZGILERI
 70
     0
 62
     7
  6
Continuous
370
    -3
390
F
  0
LAYER
  5
81
330
2
100
AcDbSymbolTableRecord
100
AcDbLayerTableRecord
  2
\U+041E\U+0421\U+0415\U+0412\U+042B\U+0415
 70
     0
 62
     7
  6
Continuous
370
    -3
390
F
  0
LAYER
  5
82
330
2
100
AcDbSymbolTableRecord
100
AcDbLayerTableRecord
  2
\U+0412\U+041E\U+0414\U+042F\U+041D\U+042B\U+0415_\U+0417\U+041D\U+0410\U+041A\U+0418
 70
     0
 62
    11
  6
Continuous
370
    -3
390
F
  0
ENDTAB
  0
TABLE
  2
STYLE
  5
3
330
0
100
AcDbSymbolTable
 70
     1
  0
STYLE
  5
11
330
3
100
AcDbSymbolTableRecord
100
AcDbTextStyleTableRecord
  2
Standard
 70
     0
 40
0.0
 41
1.0
 50
0.0
 71
     0
 42
3.5
  3
txt
  4

  0
ENDTAB
  0
TABLE
  2
VIEW
  5
6
330
0
100
AcDbSymbolTable
 70
     0
  0
ENDTAB
  0
TABLE
  2
UCS
  5
7
330
0
100
AcDbSymbolTable
 70
     0
  0
ENDTAB
  0
TABLE
  2
APPID
  5
9
330
0
100
AcDbSymbolTable
 70
     1
  0
APPID
  5
12
330
9
100
AcDbSymbolTableRecord
100
AcDbRegAppTableRecord
  2
ACAD
 70
     0
  0
ENDTAB
  0
TABLE
  2
DIMSTYLE
  5
A
330
0
100
AcDbSymbolTable
 70
     1
100
AcDbDimStyleTable
  0
DIMSTYLE
105
27
330
A
100
AcDbSymbolTableRecord
100
AcDbDimStyleTableRecord
  2
ISO-25
 70
     0
 41
2.5
 42
0.625
 43
3.75
 44
1.25
 73
     0
 74
     0
 77
     1
 78
     8
140
2.5
141
2.5
143
0.0393700787
147
0.625
171
     3
172
     1
178
     0
271
     2
272
     2
274
     3
278
    44
283
     0
284
     8
340
11
  0
ENDTAB
  0
TABLE
  2
BLOCK_RECORD
  5
1
330
0
100
AcDbSymbolTable
 70
     1
  0
BLOCK_RECORD
  5
1F
330
1
100
AcDbSymbolTableRecord
100
AcDbBlockTableRecord
  2
*Model_Space
340
22
  0
BLOCK_RECORD
  5
1B
330
1
100
AcDbSymbolTableRecord
100
AcDbBlockTableRecord
  2
*Paper_Space
340
1E
  0
BLOCK_RECORD
  5
23
330
1
100
AcDbSymbolTableRecord
100
AcDbBlockTableRecord
  2
*Paper_Space0
340
26
  0
ENDTAB
  0
ENDSEC
  0
SECTION
  2
BLOCKS
  0
BLOCK
  5
20
330
1F
100
AcDbEntity
  8
0
100
AcDbBlockBegin
  2
*Model_Space
 70
     0
 10
0.0
 20
0.0
 30
0.0
  3
*Model_Space
  1

  0
ENDBLK
  5
21
330
1F
100
AcDbEntity
  8
0
100
AcDbBlockEnd
  0
BLOCK
  5
1C
330
1B
100
AcDbEntity
 67
     1
  8
0
100
AcDbBlockBegin
  2
*Paper_Space
 70
     0
 10
0.0
 20
0.0
 30
0.0
  3
*Paper_Space
  1

  0
ENDBLK
  5
1D
330
1B
100
AcDbEntity
 67
     1
  8
0
100
AcDbBlockEnd
  0
BLOCK
  5
24
330
23
100
AcDbEntity
  8
0
100
AcDbBlockBegin
  2
*Paper_Space0
 70
     0
 10
0.0
 20
0.0
 30
0.0
  3
*Paper_Space0
  1

  0
ENDBLK
  5
25
330
23
100
AcDbEntity
  8
0
100
AcDbBlockEnd
  0
ENDSEC
  0
SECTION
  2
ENTITIES
  0
CIRCLE
  5
83
330
1F
100
AcDbEntity
  8
0
  6
Continuous
 62
     7
370
    25
100
AcDbCircle
 10
142.0677949524
 20
109.1626393021
 30
0.0
 40
200.0
  0
CIRCLE
  5
84
330
1F
100
AcDbEntity
  8
0
  6
Continuous
 62
     7
370
    25
100
AcDbCircle
 10
142.0677949524
 20
109.1626393021
 30
0.0
 40
176.3
  0
CIRCLE
  5
85
330
1F
100
AcDbEntity
  8
0
  6
Continuous
 62
     7
370
    25
100
AcDbCircle
 10
142.0677949524
 20
109.1626393021
 30
0.0
 40
215.0
  0
CIRCLE
  5
86
330
1F
100
AcDbEntity
  8
0
  6
Continuous
 62
     7
370
    25
100
AcDbCircle
 10
142.0677949524
 20
109.1626393021
 30
0.0
 40
242.5
  0
LINE
  5
87
330
1F
100
AcDbEntity
  8
0
  6
Continuous
 62
     7
370
    25
100
AcDbLine
 10
384.5677949524
 20
563.0026162923
 30
0.0
 11
384.5677949524
 21
596.0026162923
 31
0.0
  0
LINE
  5
88
330
1F
100
AcDbEntity
  8
0
  6
Continuous
 62
     7
370
    25
100
AcDbLine
 10
-100.4322050476
 20
596.0026162923
 30
0.0
 11
-100.4322050476
 21
563.0026162923
 31
0.0
  0
LINE
  5
89
330
1F
100
AcDbEntity
  8
0
  6
Continuous
 62
     7
370
    25
100
AcDbLine
 10
357.0677949524
 20
596.0026162923
 30
0.0
 11
342.0677949524
 21
620.0026162923
 31
0.0
  0
LINE
  5
8A
330
1F
100
AcDbEntity
  8
0
  6
Continuous
 62
     7
370
    25
100
AcDbLine
 10
-57.9322050476
 20
620.0026162923
 30
0.0
 11
-72.9322050476
 21
596.0026162923
 31
0.0
  0
LINE
  5
8B
330
1F
100
AcDbEntity
  8
0
  6
Continuous
 62
     7
370
    25
100
AcDbLine
 10
342.0677949524
 20
620.0026162923
 30
0.0
 11
342.0677949524
 21
805.0026162923
 31
0.0
  0
LINE
  5
8C
330
1F
100
AcDbEntity
  8
0
  6
Continuous
 62
     7
370
    25
100
AcDbLine
 10
-57.9322050476
 20
805.0026162923
 30
0.0
 11
-57.9322050476
 21
620.0026162923
 31
0.0
  0
LINE
  5
8D
330
1F
100
AcDbEntity
  8
0
  6
Continuous
 62
     7
370
    25
100
AcDbLine
 10
384.5677949524
 20
563.0026162923
 30
0.0
 11
-100.4322050476
 21
563.0026162923
 31
0.0
  0
LINE
  5
8E
330
1F
100
AcDbEntity
  8
0
  6
Continuous
 62
     7
370
    25
100
AcDbLine
 10
384.5677949524
 20
596.0026162923
 30
0.0
 11
-100.4322050476
 21
596.0026162923
 31
0.0
  0
LINE
  5
8F
330
1F
100
AcDbEntity
  8
0
  6
Continuous
 62
     7
370
    25
100
AcDbLine
 10
342.0677949524
 20
620.0026162923
 30
0.0
 11
-57.9322050476
 21
620.0026162923
 31
0.0
  0
LINE
  5
90
330
1F
100
AcDbEntity
  8
0
  6
Continuous
 62
     7
370
    25
100
AcDbLine
 10
342.0677949524
 20
805.0026162923
 30
0.0
 11
-57.9322050476
 21
805.0026162923
 31
0.0
  0
LINE
  5
91
330
1F
100
AcDbEntity
  8
0
  6
Continuous
 62
     7
370
    25
100
AcDbLine
 10
-339.0443859801
 20
351.6626393021
 30
0.0
 11
-372.0443859801
 21
351.6626393021
 31
0.0
  0
LINE
  5
92
330
1F
100
AcDbEntity
  8
0
  6
Continuous
 62
     7
370
    25
100
AcDbLine
 10
-372.0443859801
 20
-133.3373606979
 30
0.0
 11
-339.0443859801
 21
-133.3373606979
 31
0.0
  0
LINE
  5
93
330
1F
100
AcDbEntity
  8
0
  6
Continuous
 62
     7
370
    25
100
AcDbLine
 10
-372.0443859801
 20
324.1626393021
 30
0.0
 11
-396.0443859801
 21
309.1626393021
 31
0.0
  0
LINE
  5
94
330
1F
100
AcDbEntity
  8
0
  6
Continuous
 62
     7
370
    25
100
AcDbLine
 10
-396.0443859801
 20
-90.8373606979
 30
0.0
 11
-372.0443859801
 21
-105.8373606979
 31
0.0
  0
LINE
  5
95
330
1F
100
AcDbEntity
  8
0
  6
Continuous
 62
     7
370
    25
100
AcDbLine
 10
-396.0443859801
 20
309.1626393021
 30
0.0
 11
-581.0443859801
 21
309.1626393021
 31
0.0
  0
LINE
  5
96
330
1F
100
AcDbEntity
  8
0
  6
Continuous
 62
     7
370
    25
100
AcDbLine
 10
-581.0443859801
 20
-90.8373606979
 30
0.0
 11
-396.0443859801
 21
-90.8373606979
 31
0.0
  0
LINE
  5
97
330
1F
100
AcDbEntity
  8
0
  6
Continuous
 62
     7
370
    25
100
AcDbLine
 10
-339.0443859801
 20
351.6626393021
 30
0.0
 11
-339.0443859801
 21
-133.3373606979
 31
0.0
  0
LINE
  5
98
330
1F
100
AcDbEntity
  8
0
  6
Continuous
 62
     7
370
    25
100
AcDbLine
 10
-372.0443859801
 20
351.6626393021
 30
0.0
 11
-372.0443859801
 21
-133.3373606979
 31
0.0
  0
LINE
  5
99
330
1F
100
AcDbEntity
  8
0
  6
Continuous
 62
     7
370
    25
100
AcDbLine
 10
-396.0443859801
 20
309.1626393021
 30
0.0
 11
-396.0443859801
 21
-90.8373606979
 31
0.0
  0
LINE
  5
9A
330
1F
100
AcDbEntity
  8
0
  6
Continuous
 62
     7
370
    25
100
AcDbLine
 10
-581.0443859801
 20
309.1626393021
 30
0.0
 11
-581.0443859801
 21
-90.8373606979
 31
0.0
  0
LINE
  5
9B
330
1F
100
AcDbEntity
  8
0
  6
Continuous
 62
     7
370
    25
100
AcDbLine
 10
-100.4322050476
 20
-352.7886792208
 30
0.0
 11
-100.4322050476
 21
-385.7886792208
 31
0.0
  0
LINE
  5
9C
330
1F
100
AcDbEntity
  8
0
  6
Continuous
 62
     7
370
    25
100
AcDbLine
 10
384.5677949524
 20
-385.7886792208
 30
0.0
 11
384.5677949524
 21
-352.7886792208
 31
0.0
  0
LINE
  5
9D
330
1F
100
AcDbEntity
  8
0
  6
Continuous
 62
     7
370
    25
100
AcDbLine
 10
-72.9322050476
 20
-385.7886792208
 30
0.0
 11
-57.9322050476
 21
-409.7886792208
 31
0.0
  0
LINE
  5
9E
330
1F
100
AcDbEntity
  8
0
  6
Continuous
 62
     7
370
    25
100
AcDbLine
 10
342.0677949524
 20
-409.7886792208
 30
0.0
 11
357.0677949524
 21
-385.7886792208
 31
0.0
  0
LINE
  5
9F
330
1F
100
AcDbEntity
  8
0
  6
Continuous
 62
     7
370
    25
100
AcDbLine
 10
-57.9322050476
 20
-409.7886792208
 30
0.0
 11
-57.9322050476
 21
-594.7886792208
 31
0.0
  0
LINE
  5
A0
330
1F
100
AcDbEntity
  8
0
  6
Continuous
 62
     7
370
    25
100
AcDbLine
 10
342.0677949524
 20
-594.7886792208
 30
0.0
 11
342.0677949524
 21
-409.7886792208
 31
0.0
  0
LINE
  5
A1
330
1F
100
AcDbEntity
  8
0
  6
Continuous
 62
     7
370
    25
100
AcDbLine
 10
-100.4322050476
 20
-352.7886792208
 30
0.0
 11
384.5677949524
 21
-352.7886792208
 31
0.0
  0
LINE
  5
A2
330
1F
100
AcDbEntity
  8
0
  6
Continuous
 62
     7
370
    25
100
AcDbLine
 10
-100.4322050476
 20
-385.7886792208
 30
0.0
 11
384.5677949524
 21
-385.7886792208
 31
0.0
  0
LINE
  5
A3
330
1F
100
AcDbEntity
  8
0
  6
Continuous
 62
     7
370
    25
100
AcDbLine
 10
-57.9322050476
 20
-409.7886792208
 30
0.0
 11
342.0677949524
 21
-409.7886792208
 31
0.0
  0
LINE
  5
A4
330
1F
100
AcDbEntity
  8
0
  6
Continuous
 62
     7
370
    25
100
AcDbLine
 10
-57.9322050476
 20
-594.7886792208
 30
0.0
 11
342.0677949524
 21
-594.7886792208
 31
0.0
  0
LINE
  5
A5
330
1F
100
AcDbEntity
  8
0
  6
Continuous
 62
     7
370
    25
100
AcDbLine
 10
673.1266287939
 20
-133.3373606979
 30
0.0
 11
706.1266287939
 21
-133.3373606979
 31
0.0
  0
LINE
  5
A6
330
1F
100
AcDbEntity
  8
0
  6
Continuous
 62
     7
370
    25
100
AcDbLine
 10
706.1266287939
 20
351.6626393021
 30
0.0
 11
673.1266287939
 21
351.6626393021
 31
0.0
  0
LINE
  5
A7
330
1F
100
AcDbEntity
  8
0
  6
Continuous
 62
     7
370
    25
100
AcDbLine
 10
706.1266287939
 20
-105.8373606979
 30
0.0
 11
730.1266287939
 21
-90.8373606979
 31
0.0
  0
LINE
  5
A8
330
1F
100
AcDbEntity
  8
0
  6
Continuous
 62
     7
370
    25
100
AcDbLine
 10
730.1266287939
 20
309.1626393021
 30
0.0
 11
706.1266287939
 21
324.1626393021
 31
0.0
  0
LINE
  5
A9
330
1F
100
AcDbEntity
  8
0
  6
Continuous
 62
     7
370
    25
100
AcDbLine
 10
730.1266287939
 20
-90.8373606979
 30
0.0
 11
915.1266287939
 21
-90.8373606979
 31
0.0
  0
LINE
  5
AA
330
1F
100
AcDbEntity
  8
0
  6
Continuous
 62
     7
370
    25
100
AcDbLine
 10
915.1266287939
 20
309.1626393021
 30
0.0
 11
730.1266287939
 21
309.1626393021
 31
0.0
  0
LINE
  5
AB
330
1F
100
AcDbEntity
  8
0
  6
Continuous
 62
     7
370
    25
100
AcDbLine
 10
673.1266287939
 20
109.1626393021
 30
0.0
 11
673.1266287939
 21
351.6626393021
 31
0.0
  0
LINE
  5
AC
330
1F
100
AcDbEntity
  8
0
  6
Continuous
 62
     7
370
    25
100
AcDbLine
 10
673.1266287939
 20
-133.3373606979
 30
0.0
 11
673.1266287939
 21
109.1626393021
 31
0.0
  0
LINE
  5
AD
330
1F
100
AcDbEntity
  8
0
  6
Continuous
 62
     7
370
    25
100
AcDbLine
 10
706.1266287939
 20
109.1626393021
 30
0.0
 11
706.1266287939
 21
351.6626393021
 31
0.0
  0
LINE
  5
AE
330
1F
100
AcDbEntity
  8
0
  6
Continuous
 62
     7
370
    25
100
AcDbLine
 10
706.1266287939
 20
-133.3373606979
 30
0.0
 11
706.1266287939
 21
109.1626393021
 31
0.0
  0
LINE
  5
AF
330
1F
100
AcDbEntity
  8
0
  6
Continuous
 62
     7
370
    25
100
AcDbLine
 10
730.1266287939
 20
109.1626393021
 30
0.0
 11
730.1266287939
 21
309.1626393021
 31
0.0
  0
LINE
  5
B0
330
1F
100
AcDbEntity
  8
0
  6
Continuous
 62
     7
370
    25
100
AcDbLine
 10
730.1266287939
 20
-90.8373606979
 30
0.0
 11
730.1266287939
 21
109.1626393021
 31
0.0
  0
LINE
  5
B1
330
1F
100
AcDbEntity
  8
0
  6
Continuous
 62
     7
370
    25
100
AcDbLine
 10
915.1266287939
 20
109.1626393021
 30
0.0
 11
915.1266287939
 21
309.1626393021
 31
0.0
  0
LINE
  5
B2
330
1F
100
AcDbEntity
  8
0
  6
Continuous
 62
     7
370
    25
100
AcDbLine
 10
915.1266287939
 20
-90.8373606979
 30
0.0
 11
915.1266287939
 21
109.1626393021
 31
0.0
  0
LINE
  5
B3
330
1F
100
AcDbEntity
  8
0
  6
Continuous
 62
     7
370
    25
100
AcDbLine
 10
835.5089125088
 20
-289.3762327276
 30
0.0
 11
704.6941579893
 21
-213.858482384
 31
0.0
  0
LINE
  5
B4
330
1F
100
AcDbEntity
  8
0
  6
Continuous
 62
     7
370
    25
100
AcDbLine
 10
504.7104114621
 20
-560.2780273362
 30
0.0
 11
635.5251659816
 21
-635.7957776798
 31
0.0
  0
LINE
  5
B5
330
1F
100
AcDbEntity
  8
0
  6
Continuous
 62
     7
370
    25
100
AcDbLine
 10
897.062272105
 20
-275.8367872633
 30
0.0
 11
873.7277483258
 21
-262.3660534183
 31
0.0
  0
LINE
  5
B6
330
1F
100
AcDbEntity
  8
0
  6
Continuous
 62
     7
370
    25
100
AcDbLine
 10
631.2474556616
 20
-682.3997516729
 30
0.0
 11
654.5819794407
 21
-695.870485518
 31
0.0
  0
LWPOLYLINE
  5
B7
330
1F
100
AcDbEntity
  8
0
  6
Continuous
 62
     7
370
    25
100
AcDbPolyline
 90
      151
 70
   128
 43
0.0
 10
463.2809284884
 20
-468.7090660424
 10
463.4049790455
 20
-461.7988171212
 10
463.7769130899
 20
-454.7574654003
 10
464.3960781229
 20
-447.5973638031
 10
465.2613879186
 20
-440.3310735809
 10
466.3713244297
 20
-432.9713422758
 10
467.7239404503
 20
-425.5310813575
 10
469.3168630323
 20
-418.0233435717
 10
471.1472976483
 20
-410.4613000417
 10
473.2120330938
 20
-402.8582171614
 10
475.5074471215
 20
-395.2274333218
 10
478.029512795
 20
-387.5823355106
 10
480.7738055541
 20
-379.9363358273
 10
483.7355109769
 20
-372.3028479535
 10
486.9094332256
 20
-364.6952636206
 10
490.2900041622
 20
-357.1269291168
 10
493.8712931164
 20
-349.6111218725
 10
497.6470172905
 20
-342.1610271675
 10
501.6105527813
 20
-334.7897149994
 10
505.7549462008
 20
-327.5101171546
 10
510.0729268746
 20
-320.3350045213
 10
514.5569195973
 20
-313.2769646853
 10
519.199057922
 20
-306.3483798466
 10
523.9911979608
 20
-299.5614050975
 10
528.9249326715
 20
-292.9279470979
 10
533.9916066071
 20
-286.4596431873
 10
539.1823310997
 20
-280.1678409685
 10
544.4879998548
 20
-274.0635784007
 10
549.8993049266
 20
-268.1575644347
 10
555.4067530471
 20
-262.4601602258
 10
561.0006822808
 20
-256.981360957
 10
566.6712789752
 20
-251.7307783039
 10
572.4085949767
 20
-246.7176235727
 10
578.2025650835
 20
-241.9506915403
 10
584.0430247032
 20
-237.4383450252
 10
589.919727685
 20
-233.1885002165
 10
595.822364295
 20
-229.2086127861
 10
601.7405793029
 20
-225.5056648091
 10
607.6639901485
 20
-222.0861525143
 10
613.5822051564
 20
-218.9560748883
 10
619.4848417664
 20
-216.1209231509
 10
625.3615447483
 20
-213.5856711216
 10
631.202004368
 20
-211.3547664939
 10
636.9959744747
 20
-209.4321230327
 10
642.7332904762
 20
-207.8211137079
 10
648.4038871706
 20
-206.5245647773
 10
653.9978164044
 20
-205.5447508282
 10
659.5052645249
 20
-204.8833907873
 10
664.9165695966
 20
-204.5416449048
 10
670.2222383517
 20
-204.5201127191
 10
675.4129628444
 20
-204.818832005
 10
680.4796367799
 20
-205.4372787074
 10
685.4133714907
 20
-206.3743678605
 10
690.2055115294
 20
-207.6284554917
 10
694.8476498542
 20
-209.197341505
 10
699.3316425769
 20
-211.0782735413
 10
703.6496232507
 20
-213.2679518066
 10
707.7940166701
 20
-215.7625348612
 10
711.7575521609
 20
-218.5576463587
 10
715.533276335
 20
-221.6483827239
 10
719.1145652893
 20
-225.0293217548
 10
722.4951362258
 20
-228.6945321356
 10
725.6690584745
 20
-232.6375838418
 10
728.6307638973
 20
-236.8515594209
 10
731.3750566565
 20
-241.3290661277
 10
733.89712233
 20
-246.0622488941
 10
736.1925363576
 20
-251.0428041091
 10
738.2572718032
 20
-256.2619941865
 10
740.0877064191
 20
-261.7106628934
 10
741.6806290012
 20
-267.3792514134
 10
743.0332450218
 20
-273.257815116
 10
744.1431815328
 20
-279.336041003
 10
745.0084913286
 20
-285.6032658008
 10
745.6276563616
 20
-292.0484946674
 10
745.999590406
 20
-298.6604204813
 10
746.123640963
 20
-305.4274436778
 10
745.999590406
 20
-312.337692599
 10
745.6276563616
 20
-319.3790443199
 10
745.0084913286
 20
-326.5391459171
 10
744.1431815328
 20
-333.8054361393
 10
743.0332450218
 20
-341.1651674444
 10
741.6806290012
 20
-348.6054283628
 10
740.0877064191
 20
-356.1131661486
 10
738.2572718032
 20
-363.6752096786
 10
736.1925363576
 20
-371.2782925588
 10
733.89712233
 20
-378.9090763984
 10
731.3750566565
 20
-386.5541742096
 10
728.6307638973
 20
-394.2001738929
 10
725.6690584745
 20
-401.8336617667
 10
722.4951362258
 20
-409.4412460996
 10
719.1145652893
 20
-417.0095806034
 10
715.533276335
 20
-424.5253878477
 10
711.7575521609
 20
-431.9754825527
 10
707.7940166701
 20
-439.3467947208
 10
703.6496232506
 20
-446.6263925656
 10
699.3316425769
 20
-453.8015051989
 10
694.8476498542
 20
-460.859545035
 10
690.2055115294
 20
-467.7881298736
 10
685.4133714907
 20
-474.5751046227
 10
680.4796367799
 20
-481.2085626223
 10
675.4129628444
 20
-487.6768665329
 10
670.2222383517
 20
-493.9686687517
 10
664.9165695966
 20
-500.0729313195
 10
659.5052645249
 20
-505.9789452855
 10
653.9978164044
 20
-511.6763494944
 10
648.4038871706
 20
-517.1551487632
 10
642.7332904762
 20
-522.4057314163
 10
636.9959744747
 20
-527.4188861475
 10
631.202004368
 20
-532.1858181799
 10
625.3615447483
 20
-536.6981646951
 10
619.4848417664
 20
-540.9480095037
 10
613.5822051564
 20
-544.9278969341
 10
607.6639901485
 20
-548.6308449112
 10
601.7405793029
 20
-552.050357206
 10
595.822364295
 20
-555.1804348319
 10
589.919727685
 20
-558.0155865693
 10
584.0430247032
 20
-560.5508385986
 10
578.2025650835
 20
-562.7817432263
 10
572.4085949767
 20
-564.7043866875
 10
566.6712789752
 20
-566.3153960123
 10
561.0006822808
 20
-567.611944943
 10
555.4067530471
 20
-568.591758892
 10
549.8993049266
 20
-569.253118933
 10
544.4879998548
 20
-569.5948648155
 10
539.1823310997
 20
-569.6163970011
 10
533.9916066071
 20
-569.3176777152
 10
528.9249326715
 20
-568.6992310128
 10
523.9911979608
 20
-567.7621418597
 10
519.199057922
 20
-566.5080542285
 10
514.5569195973
 20
-564.9391682152
 10
510.0729268746
 20
-563.0582361789
 10
505.7549462008
 20
-560.8685579136
 10
501.6105527813
 20
-558.373974859
 10
497.6470172905
 20
-555.5788633615
 10
493.8712931164
 20
-552.4881269963
 10
490.2900041622
 20
-549.1071879654
 10
486.9094332256
 20
-545.4419775846
 10
483.7355109769
 20
-541.4989258784
 10
480.7738055541
 20
-537.2849502993
 10
478.029512795
 20
-532.8074435925
 10
475.5074471215
 20
-528.0742608261
 10
473.2120330938
 20
-523.0937056111
 10
471.1472976483
 20
-517.8745155337
 10
469.3168630323
 20
-512.4258468268
 10
467.7239404503
 20
-506.7572583068
 10
466.3713244297
 20
-500.8786946042
 10
465.2613879186
 20
-494.8004687172
 10
464.3960781229
 20
-488.5332439194
 10
463.7769130899
 20
-482.0880150529
 10
463.4049790455
 20
-475.476089239
 10
463.2809284884
 20
-468.7090660424
  0
LWPOLYLINE
  5
B8
330
1F
100
AcDbEntity
  8
0
  6
Continuous
 62
     7
370
    25
100
AcDbPolyline
 90
      142
 70
   128
 43
0.0
 10
480.0393592025
 20
-459.0346299173
 10
480.1631125522
 20
-452.5503956152
 10
480.5341269003
 20
-445.936152584
 10
481.1516656322
 20
-439.2050327909
 10
482.0145026819
 20
-432.3704002513
 10
483.1209249664
 20
-425.4458244953
 10
484.4687357865
 20
-418.4450536272
 10
486.0552591887
 20
-411.3819870296
 10
487.8773452777
 20
-404.2706477673
 10
489.93137647
 20
-397.1251547462
 10
492.2132746771
 20
-389.9596946814
 10
494.7185094011
 20
-382.7884939304
 10
497.4421067304
 20
-375.6257902485
 10
500.3786592146
 20
-368.485804521
 10
503.5223366007
 20
-361.3827125286
 10
506.8668974081
 20
-354.3306168029
 10
510.4057013209
 20
-347.3435186272
 10
514.1317223716
 20
-340.4352902382
 10
518.0375628902
 20
-333.6196472839
 10
522.115468192
 20
-326.9101215925
 10
526.3573419734
 20
-320.3200343063
 10
530.7547623867
 20
-313.8624694334
 10
535.2989987606
 20
-307.5502478712
 10
539.9810289346
 20
-301.3959019514
 10
544.7915571711
 20
-295.4116505581
 10
549.7210326115
 20
-289.6093748684
 10
554.7596682387
 20
-284.0005947638
 10
559.897460308
 20
-278.5964459579
 10
565.1242082089
 20
-273.4076578879
 10
570.4295347172
 20
-268.4445324123
 10
575.8029065981
 20
-263.7169233573
 10
581.2336555193
 20
-259.2342169531
 10
586.7109992315
 20
-255.0053131982
 10
592.2240629756
 20
-251.0386081897
 10
597.761901074
 20
-247.3419774531
 10
603.3135186616
 20
-243.9227603067
 10
608.8678935158
 20
-240.7877452895
 10
614.4139979393
 20
-237.9431566837
 10
619.9408206551
 20
-235.3946421566
 10
625.4373886684
 20
-233.147261548
 10
630.8927890522
 20
-231.205476824
 10
636.2961906139
 20
-229.5731432185
 10
641.6368654
 20
-228.2535015787
 10
646.904209995
 20
-227.2491719309
 10
652.0877665737
 20
-226.5621482787
 10
657.1772436644
 20
-226.193794644
 10
662.1625365815
 20
-226.1448423588
 10
667.0337474873
 20
-226.4153886133
 10
671.7812050435
 20
-227.0048962631
 10
676.3954836125
 20
-227.9121948951
 10
680.8674219713
 20
-229.1354831521
 10
685.1881415003
 20
-230.6723323083
 10
689.3490638108
 20
-232.519691092
 10
693.3419277767
 20
-234.6738917434
 10
697.1588059362
 20
-237.1306572965
 10
700.7921202311
 20
-239.8851100707
 10
704.234657052
 20
-242.9317813549
 10
707.4795815608
 20
-246.2646222654
 10
710.5204512603
 20
-249.877015755
 10
713.3512287851
 20
-253.7617897508
 10
715.9662938886
 20
-257.9112313936
 10
718.3604546009
 20
-262.3171023512
 10
720.5289575376
 20
-266.9706551746
 10
722.4674973369
 20
-271.8626506653
 10
724.1722252074
 20
-276.9833762193
 10
725.6397565698
 20
-282.3226651099
 10
726.8671777763
 20
-287.8699166732
 10
727.8520518958
 20
-293.6141173548
 10
728.5924235518
 20
-299.5438625758
 10
729.086822805
 20
-305.6473793761
 10
729.3342680715
 20
-311.912549788
 10
729.3342680715
 20
-318.3269348955
 10
729.086822805
 20
-324.8777995309
 10
728.5924235518
 20
-331.5521375587
 10
727.8520518958
 20
-338.3366976985
 10
726.8671777763
 20
-345.2180098343
 10
725.6397565698
 20
-352.1824117578
 10
724.1722252074
 20
-359.2160762936
 10
722.4674973369
 20
-366.3050387517
 10
720.5289575376
 20
-373.4352246536
 10
718.3604546009
 20
-380.5924776749
 10
715.9662938886
 20
-387.7625877525
 10
713.3512287851
 20
-394.9313192963
 10
710.5204512603
 20
-402.0844394536
 10
707.4795815608
 20
-409.2077463663
 10
704.234657052
 20
-416.2870973679
 10
700.7921202311
 20
-423.3084370624
 10
697.1588059362
 20
-430.2578252297
 10
693.3419277767
 20
-437.1214645028
 10
689.3490638108
 20
-443.8857277613
 10
685.1881415003
 20
-450.5371851867
 10
680.8674219713
 20
-457.0626309258
 10
676.3954836125
 20
-463.4491093102
 10
671.7812050435
 20
-469.6839405783
 10
667.0337474873
 20
-475.7547460497
 10
662.1625365815
 20
-481.649472702
 10
657.1772436644
 20
-487.3564171012
 10
652.0877665737
 20
-492.8642486373
 10
646.904209995
 20
-498.1620320208
 10
641.6368654
 20
-503.239248993
 10
636.2961906139
 20
-508.0858192096
 10
630.8927890522
 20
-512.6921202542
 10
625.4373886684
 20
-517.0490067423
 10
619.9408206551
 20
-521.1478284792
 10
614.4139979393
 20
-524.9804476336
 10
608.8678935158
 20
-528.539254895
 10
603.3135186616
 20
-531.817184581
 10
597.761901074
 20
-534.8077286657
 10
592.2240629756
 20
-537.5049497006
 10
586.7109992315
 20
-539.9034926029
 10
581.2336555193
 20
-541.9985952878
 10
575.8029065981
 20
-543.7860981228
 10
570.4295347172
 20
-545.2624521865
 10
565.1242082089
 20
-546.4247263146
 10
559.897460308
 20
-547.2706129193
 10
554.7596682387
 20
-547.7984325711
 10
549.7210326115
 20
-548.007137333
 10
544.7915571711
 20
-547.896312841
 10
539.9810289346
 20
-547.4661791267
 10
535.2989987606
 20
-546.717590181
 10
530.7547623867
 20
-545.6520322579
 10
526.3573419734
 20
-544.2716209239
 10
522.115468192
 20
-542.579096858
 10
518.0375628902
 20
-540.5778204102
 10
514.1317223716
 20
-538.2717649294
 10
510.4057013209
 20
-535.6655088755
 10
506.8668974081
 20
-532.7642267286
 10
503.5223366007
 20
-529.5736787157
 10
500.3786592146
 20
-526.1001993747
 10
497.4421067304
 20
-522.3506849773
 10
494.7185094011
 20
-518.3325798373
 10
492.2132746771
 20
-514.0538615304
 10
489.93137647
 20
-509.5230250558
 10
487.8773452777
 20
-504.7490659699
 10
486.0552591887
 20
-499.7414625266
 10
484.4687357865
 20
-494.5101568591
 10
483.1209249664
 20
-489.0655352404
 10
482.0145026819
 20
-483.4184074628
 10
481.1516656322
 20
-477.5799853758
 10
480.5341269003
 20
-471.5618606261
 10
480.1631125522
 20
-465.3759816432
 10
480.0393592025
 20
-459.0346299173
  0
LWPOLYLINE
  5
B9
330
1F
100
AcDbEntity
  8
0
  6
Continuous
 62
     7
370
    25
100
AcDbPolyline
 90
       77
 70
   128
 43
0.0
 10
835.5089125088
 20
-289.3762327276
 10
838.6087711896
 20
-291.2802852048
 10
842.5723066804
 20
-294.0753967023
 10
846.3480308546
 20
-297.1661330675
 10
849.9293198088
 20
-300.5470720984
 10
853.3098907453
 20
-304.2122824792
 10
856.4838129941
 20
-308.1553341854
 10
859.4455184169
 20
-312.3693097645
 10
862.189811176
 20
-316.8468164713
 10
864.7118768495
 20
-321.5799992377
 10
867.0072908771
 20
-326.5605544527
 10
869.0720263227
 20
-331.7797445301
 10
870.9024609386
 20
-337.228413237
 10
872.4953835207
 20
-342.897001757
 10
873.8479995413
 20
-348.7755654596
 10
874.9579360524
 20
-354.8537913466
 10
875.8232458481
 20
-361.1210161444
 10
876.4424108811
 20
-367.566245011
 10
876.8143449255
 20
-374.1781708249
 10
876.9383954825
 20
-380.9451940214
 10
876.8143449255
 20
-387.8554429426
 10
876.4424108811
 20
-394.8967946635
 10
875.8232458481
 20
-402.0568962607
 10
874.9579360524
 20
-409.3231864829
 10
873.8479995413
 20
-416.682917788
 10
872.4953835207
 20
-424.1231787064
 10
870.9024609386
 20
-431.6309164922
 10
869.0720263227
 20
-439.1929600222
 10
867.0072908771
 20
-446.7960429024
 10
864.7118768495
 20
-454.426826742
 10
862.189811176
 20
-462.0719245532
 10
859.4455184169
 20
-469.7179242365
 10
856.4838129941
 20
-477.3514121103
 10
853.3098907453
 20
-484.9589964432
 10
849.9293198088
 20
-492.527330947
 10
846.3480308546
 20
-500.0431381913
 10
842.5723066804
 20
-507.4932328963
 10
838.6087711896
 20
-514.8645450644
 10
834.4643777702
 20
-522.1441429092
 10
830.1463970964
 20
-529.3192555425
 10
825.6624043737
 20
-536.3772953786
 10
821.0202660489
 20
-543.3058802172
 10
816.2281260102
 20
-550.0928549663
 10
811.2943912995
 20
-556.7263129659
 10
806.2277173639
 20
-563.1946168765
 10
801.0369928713
 20
-569.4864190953
 10
795.7313241161
 20
-575.5906816631
 10
790.3200190444
 20
-581.4966956291
 10
784.8125709239
 20
-587.194099838
 10
779.2186416901
 20
-592.6728991068
 10
773.5480449957
 20
-597.9234817599
 10
767.8107289943
 20
-602.9366364911
 10
762.0167588875
 20
-607.7035685235
 10
756.1762992678
 20
-612.2159150387
 10
750.2995962859
 20
-616.4657598473
 10
744.3969596759
 20
-620.4456472777
 10
738.478744668
 20
-624.1485952548
 10
732.5553338224
 20
-627.5681075496
 10
726.6371188146
 20
-630.6981851755
 10
720.7344822045
 20
-633.533336913
 10
714.8577792227
 20
-636.0685889422
 10
709.017319603
 20
-638.2994935699
 10
703.2233494962
 20
-640.2221370311
 10
697.4860334947
 20
-641.8331463559
 10
691.8154368004
 20
-643.1296952866
 10
686.2215075666
 20
-644.1095092356
 10
680.7140594461
 20
-644.7708692766
 10
675.3027543743
 20
-645.1126151591
 10
669.9970856192
 20
-645.1341473447
 10
664.8063611266
 20
-644.8354280588
 10
659.739687191
 20
-644.2169813564
 10
654.8059524803
 20
-643.2798922033
 10
650.0138124415
 20
-642.0258045721
 10
645.3716741168
 20
-640.4569185588
 10
640.8876813941
 20
-638.5759865225
 10
636.5697007203
 20
-636.3863082572
 10
635.5251659816
 20
-635.7957776798
  0
LWPOLYLINE
  5
BA
330
1F
100
AcDbEntity
  8
0
  6
Continuous
 62
     7
370
    25
100
AcDbPolyline
 90
       36
 70
   128
 43
0.0
 10
609.0773978128
 20
-528.4100184685
 10
609.1250634557
 20
-526.9985451984
 10
609.4960778038
 20
-520.3843021672
 10
610.1136165357
 20
-513.6531823741
 10
610.9764535854
 20
-506.8185498344
 10
612.0828758699
 20
-499.8939740785
 10
613.43068669
 20
-492.8932032104
 10
615.0172100922
 20
-485.8301366128
 10
616.8392961812
 20
-478.7187973505
 10
618.8933273736
 20
-471.5733043294
 10
621.1752255806
 20
-464.4078442645
 10
623.6804603046
 20
-457.2366435135
 10
626.4040576339
 20
-450.0739398317
 10
629.3406101181
 20
-442.9339541042
 10
632.4842875042
 20
-435.8308621117
 10
635.8288483116
 20
-428.778766386
 10
639.3676522244
 20
-421.7916682104
 10
643.0936732751
 20
-414.8834398214
 10
646.9995137937
 20
-408.0677968671
 10
651.0774190955
 20
-401.3582711757
 10
655.3192928769
 20
-394.7681838894
 10
659.7167132902
 20
-388.3106190166
 10
664.2609496641
 20
-381.9983974544
 10
668.9429798381
 20
-375.8440515346
 10
673.7535080746
 20
-369.8598001412
 10
678.682983515
 20
-364.0575244516
 10
683.7216191422
 20
-358.448744347
 10
688.8594112115
 20
-353.0445955411
 10
694.0861591124
 20
-347.8558074711
 10
699.3914856207
 20
-342.8926819955
 10
704.7648575017
 20
-338.1650729405
 10
710.1956064229
 20
-333.6823665363
 10
715.672950135
 20
-329.4534627814
 10
721.1860138791
 20
-325.4867577729
 10
726.7238519775
 20
-321.7901270363
 10
729.2891225422
 20
-320.1746408348
  0
LWPOLYLINE
  5
BB
330
1F
100
AcDbEntity
  8
0
  6
Continuous
 62
     7
370
    25
100
AcDbPolyline
 90
       85
 70
   128
 43
0.0
 10
897.062272105
 20
-275.8367872633
 10
897.6478986358
 20
-276.1781436247
 10
902.1536295065
 20
-279.0338441397
 10
906.4761917741
 20
-282.1894135812
 10
910.6093181367
 20
-285.6402766754
 10
914.5470159562
 20
-289.3814300005
 10
918.2835759471
 20
-293.407449242
 10
921.8135804547
 20
-297.7124970568
 10
925.1319113099
 20
-302.2903315371
 10
928.2337572503
 20
-307.1343152607
 10
931.1146208957
 20
-312.2374249142
 10
933.7703252694
 20
-317.5922614764
 10
936.1970198537
 20
-323.1910609463
 10
938.3911861736
 20
-329.0257055999
 10
940.3496428977
 20
-335.0877357603
 10
942.069550451
 20
-341.3683620632
 10
943.5484151318
 20
-347.858478201
 10
944.7840927279
 20
-354.5486741256
 10
945.7747916249
 20
-361.4292496927
 10
946.5190754039
 20
-368.4902287254
 10
947.0158649248
 20
-375.7213734792
 10
947.2644398903
 20
-383.1121994854
 10
947.2644398903
 20
-390.651990753
 10
947.0158649248
 20
-398.3298153053
 10
946.5190754039
 20
-406.1345410309
 10
945.7747916249
 20
-414.0548518235
 10
944.7840927279
 20
-422.0792639898
 10
943.5484151318
 20
-430.1961428991
 10
942.0695504509
 20
-438.3937198531
 10
940.3496428977
 20
-446.6601091488
 10
938.3911861736
 20
-454.9833253121
 10
936.1970198537
 20
-463.3513004752
 10
933.7703252694
 20
-471.7519018742
 10
931.1146208957
 20
-480.1729494401
 10
928.2337572503
 20
-488.6022334589
 10
925.1319113099
 20
-497.0275322748
 10
921.8135804547
 20
-505.4366300099
 10
918.2835759471
 20
-513.8173342764
 10
914.5470159562
 20
-522.1574938544
 10
910.6093181367
 20
-530.4450163096
 10
906.4761917741
 20
-538.667885527
 10
902.1536295065
 20
-546.8141791322
 10
897.6478986358
 20
-554.8720857784
 10
892.9655320412
 20
-562.8299222711
 10
888.1133187065
 20
-570.6761505084
 10
883.0982938771
 20
-578.3993942092
 10
877.9277288598
 20
-585.9884554087
 10
872.6091204793
 20
-593.4323306936
 10
867.1501802095
 20
-600.7202271564
 10
861.5588229917
 20
-607.841578044
 10
855.8431557595
 20
-614.7860580783
 10
850.011465684
 20
-621.5435984272
 10
844.0722081581
 20
-628.1044013032
 10
838.0339945375
 20
-634.4589541695
 10
831.9055796547
 20
-640.5980435317
 10
825.6958491255
 20
-646.5127682974
 10
819.4138064653
 20
-652.1945526809
 10
813.0685600356
 20
-657.6351586381
 10
806.669309837
 20
-662.8266978106
 10
800.2253341704
 20
-667.7616429628
 10
793.7459761847
 20
-672.4328388961
 10
787.2406303295
 20
-676.8335128228
 10
780.7187287342
 20
-680.9572841866
 10
774.1897275328
 20
-684.7981739132
 10
767.6630931527
 20
-688.3506130797
 10
761.14828859
 20
-691.6094509888
 10
754.6547596883
 20
-694.5699626373
 10
748.1919214438
 20
-697.2278555662
 10
741.7691443541
 20
-699.5792760848
 10
735.395740832
 20
-701.6208148583
 10
729.0809517033
 20
-703.3495118505
 10
722.8339328084
 20
-704.7628606161
 10
716.6637417277
 20
-705.8588119345
 10
710.5793246482
 20
-706.6357767811
 10
704.589503393
 20
-707.0926286311
 10
698.7029626304
 20
-707.2287050931
 10
692.9282372817
 20
-707.043808869
 10
687.2737001466
 20
-706.5382080409
 10
681.7475497633
 20
-705.7126356815
 10
676.3577985216
 20
-704.5682887919
 10
671.1122610456
 20
-703.1068265656
 10
666.018542863
 20
-701.3303679832
 10
661.0840293783
 20
-699.2414887397
 10
656.3158751644
 20
-696.8432175105
 10
654.5819794407
 20
-695.870485518
  0
LWPOLYLINE
  5
BC
330
1F
100
AcDbEntity
  8
0
  6
Continuous
 62
     7
370
    25
100
AcDbPolyline
 90
      116
 70
   128
 43
0.0
 10
783.9059626148
 20
-259.5864838464
 10
789.7340362564
 20
-257.5975626604
 10
796.0792826862
 20
-255.7121030295
 10
802.3613253463
 20
-254.140795344
 10
808.5710558756
 20
-252.8859178499
 10
814.6994707584
 20
-251.9492899994
 10
820.7376843789
 20
-251.3322698134
 10
826.6769419048
 20
-251.0357519122
 10
832.5086319804
 20
-251.0601662185
 10
838.2242992126
 20
-251.4054773338
 10
843.8156564303
 20
-252.07118459
 10
849.2745967002
 20
-253.0563227752
 10
854.5932050806
 20
-254.3594635332
 10
859.763770098
 20
-255.9787174346
 10
864.7787949273
 20
-257.9117367159
 10
869.631008262
 20
-260.155718684
 10
874.3133748567
 20
-262.7074097797
 10
878.8191057273
 20
-265.5631102946
 10
883.1416679949
 20
-268.7186797362
 10
887.2747943575
 20
-272.1695428303
 10
891.212492177
 20
-275.9106961554
 10
894.9490521679
 20
-279.9367153969
 10
898.4790566755
 20
-284.2417632117
 10
901.7973875308
 20
-288.819597692
 10
904.8992334712
 20
-293.6635814156
 10
907.7800971166
 20
-298.7666910691
 10
910.4358014902
 20
-304.1215276313
 10
912.8624960745
 20
-309.7203271012
 10
915.0566623945
 20
-315.5549717549
 10
917.0151191185
 20
-321.6170019152
 10
918.7350266718
 20
-327.8976282181
 10
920.2138913527
 20
-334.3877443559
 10
921.4495689488
 20
-341.0779402806
 10
922.4402678457
 20
-347.9585158476
 10
923.1845516248
 20
-355.0194948803
 10
923.6813411457
 20
-362.2506396341
 10
923.9299161111
 20
-369.6414656403
 10
923.9299161111
 20
-377.1812569079
 10
923.6813411457
 20
-384.8590814603
 10
923.1845516248
 20
-392.6638071858
 10
922.4402678457
 20
-400.5841179785
 10
921.4495689488
 20
-408.6085301447
 10
920.2138913527
 20
-416.725409054
 10
918.7350266718
 20
-424.922986008
 10
917.0151191185
 20
-433.1893753037
 10
915.0566623945
 20
-441.512591467
 10
912.8624960745
 20
-449.8805666302
 10
910.4358014902
 20
-458.2811680291
 10
907.7800971166
 20
-466.702215595
 10
904.8992334712
 20
-475.1314996139
 10
901.7973875308
 20
-483.5567984298
 10
898.4790566755
 20
-491.9658961649
 10
894.9490521679
 20
-500.3466004314
 10
891.212492177
 20
-508.6867600093
 10
887.2747943575
 20
-516.9742824646
 10
883.1416679949
 20
-525.1971516819
 10
878.8191057273
 20
-533.3434452872
 10
874.3133748566
 20
-541.4013519333
 10
869.631008262
 20
-549.3591884261
 10
864.7787949273
 20
-557.2054166633
 10
859.763770098
 20
-564.9286603642
 10
854.5932050806
 20
-572.5177215637
 10
849.2745967002
 20
-579.9615968486
 10
843.8156564303
 20
-587.2494933114
 10
838.2242992126
 20
-594.3708441989
 10
832.5086319804
 20
-601.3153242332
 10
826.6769419048
 20
-608.0728645821
 10
820.7376843789
 20
-614.6336674582
 10
814.6994707584
 20
-620.9882203244
 10
808.5710558756
 20
-627.1273096867
 10
802.3613253463
 20
-633.0420344523
 10
796.0792826862
 20
-638.7238188358
 10
789.7340362564
 20
-644.1644247931
 10
783.3347860578
 20
-649.3559639655
 10
776.8908103913
 20
-654.2909091177
 10
770.4114524056
 20
-658.962105051
 10
763.9061065503
 20
-663.3627789777
 10
757.384204955
 20
-667.4865503415
 10
750.8552037536
 20
-671.3274400681
 10
744.3285693736
 20
-674.8798792346
 10
737.8137648108
 20
-678.1387171438
 10
731.3202359091
 20
-681.0992287922
 10
724.8573976647
 20
-683.7571217211
 10
718.434620575
 20
-686.1085422397
 10
712.0612170529
 20
-688.1500810132
 10
705.7464279241
 20
-689.8787780054
 10
699.4994090293
 20
-691.292126771
 10
693.3292179485
 20
-692.3880780895
 10
687.244800869
 20
-693.1650429361
 10
681.2549796139
 20
-693.6218947861
 10
675.3684388513
 20
-693.757971248
 10
669.5937135026
 20
-693.5730750239
 10
663.9391763674
 20
-693.0674741958
 10
658.4130259842
 20
-692.2419018364
 10
653.0232747425
 20
-691.0975549468
 10
647.7777372664
 20
-689.6360927205
 10
642.6840190838
 20
-687.8596341381
 10
637.7495055992
 20
-685.7707548947
 10
632.9813513852
 20
-683.3724836654
 10
628.3864698097
 20
-680.6682977143
 10
623.9715230117
 20
-677.6621178525
 10
619.7429122419
 20
-674.3583027534
 10
615.7067685818
 20
-670.761642633
 10
611.8689440537
 20
-666.8773523047
 10
608.2350031364
 20
-662.7110636181
 10
604.8102146967
 20
-658.2688172935
 10
601.5995443506
 20
-653.5570541633
 10
598.6076472629
 20
-648.5826058338
 10
595.8388613986
 20
-643.3526847793
 10
593.2972012323
 20
-637.8748738855
 10
590.9863519284
 20
-632.1571154544
 10
588.9096639974
 20
-626.2076996892
 10
587.0701484383
 20
-620.0352526739
 10
585.4704723728
 20
-613.6487238666
 10
584.1129551782
 20
-607.0573731236
 10
583.9222160876
 20
-606.0060287987
  0
LWPOLYLINE
  5
BD
330
1F
100
AcDbEntity
  8
0
  6
Continuous
 62
     7
370
    25
100
AcDbPolyline
 90
       98
 70
   128
 43
0.0
 10
813.0269349793
 20
-276.3976633564
 10
813.8534318122
 20
-276.338230682
 10
819.4398255504
 20
-276.1169863435
 10
824.9162169611
 20
-276.21820639
 10
830.2736083476
 20
-276.6417245172
 10
835.50319753
 20
-277.3868448859
 10
840.5963923068
 20
-278.4523432653
 10
845.5448245725
 20
-279.8364690444
 10
850.3403640659
 20
-281.5369481082
 10
854.9751317281
 20
-283.5509865739
 10
859.4415126481
 20
-285.8752753818
 10
863.7321685737
 20
-288.5059957314
 10
867.8400499685
 20
-291.4388253561
 10
871.7584075942
 20
-294.6689456244
 10
875.4808035995
 20
-298.1910494574
 10
879.0011220975
 20
-301.9993500476
 10
882.3135792142
 20
-306.0875903671
 10
885.4127325911
 20
-310.4490534479
 10
888.2934903276
 20
-315.0765734176
 10
890.9511193461
 20
-319.962547273
 10
893.3812531691
 20
-325.0989473718
 10
895.5798990933
 20
-330.4773346223
 10
897.543444749
 20
-336.0888723482
 10
899.268664036
 20
-341.9243408079
 10
900.7527224234
 20
-347.974152342
 10
901.9931816073
 20
-354.228367126
 10
902.9880035165
 20
-360.6767095014
 10
903.7355536612
 20
-367.3085848587
 10
904.2346038184
 20
-374.1130970441
 10
904.48433405
 20
-381.0790662618
 10
904.48433405
 20
-388.1950474428
 10
904.2346038184
 20
-395.4493490487
 10
903.7355536612
 20
-402.830052281
 10
902.9880035165
 20
-410.3250306636
 10
901.9931816073
 20
-417.9219699668
 10
900.7527224234
 20
-425.6083884392
 10
899.268664036
 20
-433.3716573155
 10
897.543444749
 20
-441.1990215652
 10
895.5798990933
 20
-449.0776208495
 10
893.3812531691
 20
-456.9945106505
 10
890.9511193461
 20
-464.9366835389
 10
888.2934903276
 20
-472.8910905456
 10
885.4127325911
 20
-480.8446626007
 10
882.3135792142
 20
-488.7843320063
 10
879.0011220975
 20
-496.6970539064
 10
875.4808035995
 20
-504.5698277196
 10
871.7584075942
 20
-512.3897184993
 10
867.8400499685
 20
-520.1438781854
 10
863.7321685737
 20
-527.8195667139
 10
859.4415126481
 20
-535.4041729488
 10
854.9751317281
 20
-542.8852354019
 10
850.3403640659
 20
-550.2504627072
 10
845.5448245725
 20
-557.4877538156
 10
840.5963923068
 20
-564.5852178769
 10
835.50319753
 20
-571.5311937762
 10
830.2736083476
 20
-578.3142692933
 10
824.9162169611
 20
-584.9232998531
 10
819.4398255504
 20
-591.3474268355
 10
813.8534318122
 20
-597.5760954169
 10
808.1662141767
 20
-603.5990719112
 10
802.3875167276
 20
-609.4064605837
 10
796.5268338496
 20
-614.9887199102
 10
790.5937946293
 20
-620.3366782532
 10
784.5981470345
 20
-625.4415489312
 10
778.5497418986
 20
-630.2949446551
 10
772.4585167353
 20
-634.8888913085
 10
766.3344794115
 20
-639.215841049
 10
760.1876917044
 20
-643.2686847096
 10
754.0282527701
 20
-647.0407634789
 10
747.8662825507
 20
-650.5258798412
 10
741.711905147
 20
-653.7183077596
 10
735.5752321849
 20
-656.6128020834
 10
729.466346202
 20
-659.204607166
 10
723.3952840819
 20
-661.4894646785
 10
717.3720205638
 20
-663.4636206059
 10
711.4064518537
 20
-665.1238314153
 10
705.5083793655
 20
-666.4673693846
 10
699.6874936166
 20
-667.4920270846
 10
693.9533583072
 20
-668.1961210053
 10
688.3153946065
 20
-668.5784943222
 10
682.782865674
 20
-668.6385187969
 10
677.3648614402
 20
-668.3760958095
 10
672.070283672
 20
-667.7916565202
 10
666.9078313465
 20
-666.8861611613
 10
661.8859863595
 20
-665.6610974591
 10
657.0129995892
 20
-664.1184781902
 10
652.2968773398
 20
-662.260837874
 10
647.745368188
 20
-660.0912286086
 10
643.3659502513
 20
-657.6132150564
 10
639.1658189019
 20
-654.8308685871
 10
635.1518749446
 20
-651.7487605886
 10
631.3307132786
 20
-648.3719549564
 10
627.7086120628
 20
-644.7059997731
 10
624.2915223997
 20
-640.7569181936
 10
621.0850585588
 20
-636.5311985485
 10
618.0944887517
 20
-632.0357836841
 10
615.3247264768
 20
-627.2780595552
 10
613.043188452
 20
-622.8172083086
  0
ARC
  5
BE
330
1F
100
AcDbEntity
  8
0
  6
Continuous
 62
     7
370
    25
100
AcDbCircle
 10
964.8194899775
 20
-594.9594923625
 30
0.0
 40
332.5953882911595
100
AcDbArc
 50
136.8533320659
 51
163.1520444668
  0
ENDSEC
  0
SECTION
  2
OBJECTS
  0
DICTIONARY
  5
C
330
0
100
AcDbDictionary
281
     1
  3
ACAD_GROUP
350
D
  3
ACAD_LAYOUT
350
1A
  3
ACAD_MLINESTYLE
350
17
  3
ACAD_PLOTSETTINGS
350
19
  3
ACAD_PLOTSTYLENAME
350
E
  3
ACAD_SCALELIST
350
47
  0
DICTIONARY
  5
D
102
{ACAD_REACTORS
330
C
102
}
330
C
100
AcDbDictionary
281
     1
  0
DICTIONARY
  5
1A
102
{ACAD_REACTORS
330
C
102
}
330
C
100
AcDbDictionary
281
     1
  3
Layout1
350
1E
  3
Layout2
350
26
  3
Model
350
22
  0
DICTIONARY
  5
17
102
{ACAD_REACTORS
330
C
102
}
330
C
100
AcDbDictionary
281
     1
  3
Standard
350
18
  0
DICTIONARY
  5
19
102
{ACAD_REACTORS
330
C
102
}
330
C
100
AcDbDictionary
281
     1
  0
ACDBDICTIONARYWDFLT
  5
E
102
{ACAD_REACTORS
330
C
102
}
330
C
100
AcDbDictionary
281
     1
  3
Normal
350
F
100
AcDbDictionaryWithDefault
340
F
  0
DICTIONARY
  5
47
102
{ACAD_REACTORS
330
C
102
}
330
C
100
AcDbDictionary
281
     1
  3
A0
350
48
  3
A1
350
49
  3
A2
350
4A
  3
A3
350
4B
  3
A4
350
4C
  3
A5
350
4D
  3
A6
350
4E
  3
A7
350
4F
  3
A8
350
50
  3
A9
350
51
  3
B0
350
52
  3
B1
350
53
  3
B2
350
54
  3
B3
350
55
  3
B4
350
56
  3
B5
350
57
  3
B6
350
58
  3
B7
350
59
  3
B8
350
5A
  3
B9
350
5B
  3
C0
350
5C
  3
C1
350
5D
  3
C2
350
5E
  3
C3
350
5F
  3
C4
350
60
  3
C5
350
61
  3
C6
350
62
  3
C7
350
63
  3
C8
350
64
  3
C9
350
65
  3
D0
350
66
  3
D1
350
67
  3
D2
350
68
  0
LAYOUT
  5
1E
102
{ACAD_REACTORS
330
1A
102
}
330
1A
100
AcDbPlotSettings
  1

  2
none_device
  4

  6

 40
0.0
 41
0.0
 42
0.0
 43
0.0
 44
0.0
 45
0.0
 46
0.0
 47
0.0
 48
0.0
 49
0.0
140
0.0
141
0.0
142
1.0
143
1.0
 70
   688
 72
     1
 73
     0
 74
     5
  7

 75
    16
147
1.0
148
0.0
149
0.0
100
AcDbLayout
  1
Layout1
 70
     1
 71
     1
 10
0.0
 20
0.0
 11
420.0
 21
297.0
 12
0.0
 22
0.0
 32
0.0
 14
1.0000000000E+20
 24
1.0000000000E+20
 34
1.0000000000E+20
 15
-1.0000000000E+20
 25
-1.0000000000E+20
 35
-1.0000000000E+20
146
0.0
 13
0.0
 23
0.0
 33
0.0
 16
1.0
 26
0.0
 36
0.0
 17
0.0
 27
1.0
 37
0.0
 76
     0
330
1B
  0
LAYOUT
  5
26
102
{ACAD_REACTORS
330
1A
102
}
330
1A
100
AcDbPlotSettings
  1

  2
none_device
  4

  6

 40
0.0
 41
0.0
 42
0.0
 43
0.0
 44
0.0
 45
0.0
 46
0.0
 47
0.0
 48
0.0
 49
0.0
140
0.0
141
0.0
142
1.0
143
1.0
 70
   688
 72
     1
 73
     0
 74
     5
  7

 75
    16
147
1.0
148
0.0
149
0.0
100
AcDbLayout
  1
Layout2
 70
     1
 71
     2
 10
0.0
 20
0.0
 11
0.0
 21
0.0
 12
0.0
 22
0.0
 32
0.0
 14
0.0
 24
0.0
 34
0.0
 15
0.0
 25
0.0
 35
0.0
146
0.0
 13
0.0
 23
0.0
 33
0.0
 16
1.0
 26
0.0
 36
0.0
 17
0.0
 27
1.0
 37
0.0
 76
     0
330
23
  0
LAYOUT
  5
22
102
{ACAD_REACTORS
330
1A
102
}
330
1A
100
AcDbPlotSettings
  1

  2
none_device
  4
Letter_(8.50_x_11.00_Inches)
  6

 40
6.35
 41
6.35
 42
6.35000508
 43
6.35000508
 44
215.9
 45
279.4
 46
0.0
 47
0.0
 48
0.0
 49
0.0
140
0.0
141
0.0
142
1.0
143
1.0
 70
  1712
 72
     1
 73
     0
 74
     0
  7

 75
     0
147
1.0
148
0.0
149
0.0
100
AcDbLayout
  1
Model
 70
     1
 71
     0
 10
0.0
 20
0.0
 11
279.4
 21
215.9
 12
0.0
 22
0.0
 32
0.0
 14
0.0
 24
0.0
 34
0.0
 15
279.4
 25
215.9
 35
0.0
146
0.0
 13
0.0
 23
0.0
 33
0.0
 16
1.0
 26
0.0
 36
0.0
 17
0.0
 27
1.0
 37
0.0
 76
     0
330
1F
331
29
  0
MLINESTYLE
  5
18
102
{ACAD_REACTORS
330
17
102
}
330
17
100
AcDbMlineStyle
  2
Standard
 70
     0
  3

 62
   256
 51
90.0
 52
90.0
 71
     2
 49
0.5
 62
   256
  6
BYLAYER
 49
-0.5
 62
   256
  6
BYLAYER
  0
ACDBPLACEHOLDER
  5
F
102
{ACAD_REACTORS
330
E
102
}
330
E
  0
SCALE
  5
48
102
{ACAD_REACTORS
330
47
102
}
330
47
100
AcDbScale
 70
     0
300
1:1
140
1.0
141
1.0
290
     1
  0
SCALE
  5
49
102
{ACAD_REACTORS
330
47
102
}
330
47
100
AcDbScale
 70
     0
300
1:2
140
1.0
141
2.0
290
     0
  0
SCALE
  5
4A
102
{ACAD_REACTORS
330
47
102
}
330
47
100
AcDbScale
 70
     0
300
1:4
140
1.0
141
4.0
290
     0
  0
SCALE
  5
4B
102
{ACAD_REACTORS
330
47
102
}
330
47
100
AcDbScale
 70
     0
300
1:5
140
1.0
141
5.0
290
     0
  0
SCALE
  5
4C
102
{ACAD_REACTORS
330
47
102
}
330
47
100
AcDbScale
 70
     0
300
1:8
140
1.0
141
8.0
290
     0
  0
SCALE
  5
4D
102
{ACAD_REACTORS
330
47
102
}
330
47
100
AcDbScale
 70
     0
300
1:10
140
1.0
141
10.0
290
     0
  0
SCALE
  5
4E
102
{ACAD_REACTORS
330
47
102
}
330
47
100
AcDbScale
 70
     0
300
1:16
140
1.0
141
16.0
290
     0
  0
SCALE
  5
4F
102
{ACAD_REACTORS
330
47
102
}
330
47
100
AcDbScale
 70
     0
300
1:20
140
1.0
141
20.0
290
     0
  0
SCALE
  5
50
102
{ACAD_REACTORS
330
47
102
}
330
47
100
AcDbScale
 70
     0
300
1:30
140
1.0
141
30.0
290
     0
  0
SCALE
  5
51
102
{ACAD_REACTORS
330
47
102
}
330
47
100
AcDbScale
 70
     0
300
1:40
140
1.0
141
40.0
290
     0
  0
SCALE
  5
52
102
{ACAD_REACTORS
330
47
102
}
330
47
100
AcDbScale
 70
     0
300
1:50
140
1.0
141
50.0
290
     0
  0
SCALE
  5
53
102
{ACAD_REACTORS
330
47
102
}
330
47
100
AcDbScale
 70
     0
300
1:100
140
1.0
141
100.0
290
     0
  0
SCALE
  5
54
102
{ACAD_REACTORS
330
47
102
}
330
47
100
AcDbScale
 70
     0
300
2:1
140
2.0
141
1.0
290
     0
  0
SCALE
  5
55
102
{ACAD_REACTORS
330
47
102
}
330
47
100
AcDbScale
 70
     0
300
4:1
140
4.0
141
1.0
290
     0
  0
SCALE
  5
56
102
{ACAD_REACTORS
330
47
102
}
330
47
100
AcDbScale
 70
     0
300
8:1
140
8.0
141
1.0
290
     0
  0
SCALE
  5
57
102
{ACAD_REACTORS
330
47
102
}
330
47
100
AcDbScale
 70
     0
300
10:1
140
10.0
141
1.0
290
     0
  0
SCALE
  5
58
102
{ACAD_REACTORS
330
47
102
}
330
47
100
AcDbScale
 70
     0
300
100:1
140
100.0
141
1.0
290
     0
  0
SCALE
  5
59
102
{ACAD_REACTORS
330
47
102
}
330
47
100
AcDbScale
 70
     0
300
1/128" = 1'-0"
140
0.0078125
141
12.0
290
     0
  0
SCALE
  5
5A
102
{ACAD_REACTORS
330
47
102
}
330
47
100
AcDbScale
 70
     0
300
1/64" = 1'-0"
140
0.015625
141
12.0
290
     0
  0
SCALE
  5
5B
102
{ACAD_REACTORS
330
47
102
}
330
47
100
AcDbScale
 70
     0
300
1/32" = 1'-0"
140
0.03125
141
12.0
290
     0
  0
SCALE
  5
5C
102
{ACAD_REACTORS
330
47
102
}
330
47
100
AcDbScale
 70
     0
300
1/16" = 1'-0"
140
0.0625
141
12.0
290
     0
  0
SCALE
  5
5D
102
{ACAD_REACTORS
330
47
102
}
330
47
100
AcDbScale
 70
     0
300
3/32" = 1'-0"
140
0.09375
141
12.0
290
     0
  0
SCALE
  5
5E
102
{ACAD_REACTORS
330
47
102
}
330
47
100
AcDbScale
 70
     0
300
1/8" = 1'-0"
140
0.125
141
12.0
290
     0
  0
SCALE
  5
5F
102
{ACAD_REACTORS
330
47
102
}
330
47
100
AcDbScale
 70
     0
300
3/16" = 1'-0"
140
0.1875
141
12.0
290
     0
  0
SCALE
  5
60
102
{ACAD_REACTORS
330
47
102
}
330
47
100
AcDbScale
 70
     0
300
1/4" = 1'-0"
140
0.25
141
12.0
290
     0
  0
SCALE
  5
61
102
{ACAD_REACTORS
330
47
102
}
330
47
100
AcDbScale
 70
     0
300
3/8" = 1'-0"
140
0.375
141
12.0
290
     0
  0
SCALE
  5
62
102
{ACAD_REACTORS
330
47
102
}
330
47
100
AcDbScale
 70
     0
300
1/2" = 1'-0"
140
0.5
141
12.0
290
     0
  0
SCALE
  5
63
102
{ACAD_REACTORS
330
47
102
}
330
47
100
AcDbScale
 70
     0
300
3/4" = 1'-0"
140
0.75
141
12.0
290
     0
  0
SCALE
  5
64
102
{ACAD_REACTORS
330
47
102
}
330
47
100
AcDbScale
 70
     0
300
1" = 1'-0"
140
1.0
141
12.0
290
     0
  0
SCALE
  5
65
102
{ACAD_REACTORS
330
47
102
}
330
47
100
AcDbScale
 70
     0
300
1-1/2" = 1'-0"
140
1.5
141
12.0
290
     0
  0
SCALE
  5
66
102
{ACAD_REACTORS
330
47
102
}
330
47
100
AcDbScale
 70
     0
300
3" = 1'-0"
140
3.0
141
12.0
290
     0
  0
SCALE
  5
67
102
{ACAD_REACTORS
330
47
102
}
330
47
100
AcDbScale
 70
     0
300
6" = 1'-0"
140
6.0
141
12.0
290
     0
  0
SCALE
  5
68
102
{ACAD_REACTORS
330
47
102
}
330
47
100
AcDbScale
 70
     0
300
1'-0" = 1'-0"
140
12.0
141
12.0
290
     0
  0
ENDSEC
  0
EOF
